ISO-10303-21;
HEADER;
FILE_DESCRIPTION (( 'STEP AP214' ),
    '1' );
FILE_NAME ('am-3947a-125 375H x 125IN Spacer.STEP',
    '2025-02-06T16:33:04',
    ( '' ),
    ( '' ),
    'SwSTEP 2.0',
    'SolidWorks 2024',
    '' );
FILE_SCHEMA (( 'AUTOMOTIVE_DESIGN' ));
ENDSEC;

DATA;
#1 = EDGE_CURVE ( 'NONE', #240, #133, #166, .T. ) ;
#2 = VERTEX_POINT ( 'NONE', #138 ) ;
#3 = ADVANCED_FACE ( 'NONE', ( #267 ), #188, .T. ) ;
#4 = VECTOR ( 'NONE', #128, 39.37007874015748143 ) ;
#5 = APPLICATION_PROTOCOL_DEFINITION ( 'draft international standard', 'automotive_design', 1998, #50 ) ;
#6 = EDGE_LOOP ( 'NONE', ( #107, #186, #265, #284 ) ) ;
#7 = ADVANCED_BREP_SHAPE_REPRESENTATION ( 'am-3947a-125 375H x 125IN Spacer', ( #19, #173 ), #185 ) ;
#8 = EDGE_LOOP ( 'NONE', ( #310, #79, #182, #301 ) ) ;
#9 = EDGE_CURVE ( 'NONE', #113, #240, #84, .T. ) ;
#10 = ORIENTED_EDGE ( 'NONE', *, *, #112, .F. ) ;
#11 = VECTOR ( 'NONE', #256, 39.37007874015748143 ) ;
#12 = DIRECTION ( 'NONE',  ( 0.000000000000000000, 0.000000000000000000, 1.000000000000000000 ) ) ;
#13 = EDGE_CURVE ( 'NONE', #2, #232, #141, .T. ) ;
#14 = PLANE ( 'NONE',  #29 ) ;
#15 = AXIS2_PLACEMENT_3D ( 'NONE', #314, #244, #115 ) ;
#16 = LINE ( 'NONE', #148, #195 ) ;
#17 = FACE_OUTER_BOUND ( 'NONE', #110, .T. ) ;
#18 = EDGE_CURVE ( 'NONE', #76, #255, #266, .T. ) ;
#19 = MANIFOLD_SOLID_BREP ( 'Boss-Extrude1', #146 ) ;
#20 = CARTESIAN_POINT ( 'NONE',  ( -0.1085418506076496065, 0.1880000000000000282, 0.1250000000000000000 ) ) ;
#21 = CARTESIAN_POINT ( 'NONE',  ( 0.1085418506076496203, -0.1879999999999999727, 0.000000000000000000 ) ) ;
#22 = LINE ( 'NONE', #126, #4 ) ;
#23 = EDGE_LOOP ( 'NONE', ( #51, #82, #154, #114 ) ) ;
#24 = FACE_OUTER_BOUND ( 'NONE', #235, .T. ) ;
#25 = EDGE_LOOP ( 'NONE', ( #204, #220, #10, #131, #280, #333 ) ) ;
#26 = ADVANCED_FACE ( 'NONE', ( #193, #292 ), #243, .T. ) ;
#27 = DIRECTION ( 'NONE',  ( -0.000000000000000000, -0.000000000000000000, -1.000000000000000000 ) ) ;
#28 = VERTEX_POINT ( 'NONE', #83 ) ;
#29 = AXIS2_PLACEMENT_3D ( 'NONE', #295, #119, #224 ) ;
#30 = DIRECTION ( 'NONE',  ( -0.000000000000000000, -0.000000000000000000, -1.000000000000000000 ) ) ;
#31 = EDGE_LOOP ( 'NONE', ( #160, #241, #100, #328 ) ) ;
#32 = DIRECTION ( 'NONE',  ( 1.000000000000000000, 0.000000000000000000, 0.000000000000000000 ) ) ;
#33 = VERTEX_POINT ( 'NONE', #261 ) ;
#34 = CARTESIAN_POINT ( 'NONE',  ( -0.1085418506076496065, 0.1880000000000000282, 0.1250000000000000000 ) ) ;
#35 = AXIS2_PLACEMENT_3D ( 'NONE', #212, #234, #327 ) ;
#36 = ORIENTED_EDGE ( 'NONE', *, *, #252, .F. ) ;
#37 = SURFACE_SIDE_STYLE ('',( #316 ) ) ;
#38 = PRODUCT_DEFINITION_FORMATION_WITH_SPECIFIED_SOURCE ( 'ANY', '', #230, .NOT_KNOWN. ) ;
#39 = CARTESIAN_POINT ( 'NONE',  ( 0.000000000000000000, 0.000000000000000000, 0.1250000000000000000 ) ) ;
#40 = EDGE_CURVE ( 'NONE', #232, #213, #288, .T. ) ;
#41 = DIRECTION ( 'NONE',  ( 0.000000000000000000, -0.000000000000000000, -1.000000000000000000 ) ) ;
#42 = EDGE_CURVE ( 'NONE', #134, #257, #293, .T. ) ;
#43 = PRODUCT_CONTEXT ( 'NONE', #50, 'mechanical' ) ;
#44 = CARTESIAN_POINT ( 'NONE',  ( 0.3125000000000000000, 3.827021247335478926E-17, 0.000000000000000000 ) ) ;
#45 = CARTESIAN_POINT ( 'NONE',  ( -0.1085418506076496065, 0.1880000000000000282, 0.1250000000000000000 ) ) ;
#46 = VECTOR ( 'NONE', #253, 39.37007874015748143 ) ;
#47 = DIRECTION ( 'NONE',  ( 0.5000000000000001110, 0.8660254037844385966, 0.000000000000000000 ) ) ;
#48 = DIRECTION ( 'NONE',  ( 1.000000000000000000, 0.000000000000000000, 0.000000000000000000 ) ) ;
#49 = LINE ( 'NONE', #254, #116 ) ;
#50 = APPLICATION_CONTEXT ( 'automotive_design' ) ;
#51 = ORIENTED_EDGE ( 'NONE', *, *, #93, .F. ) ;
#52 = CIRCLE ( 'NONE', #236, 0.3125000000000000000 ) ;
#53 = ORIENTED_EDGE ( 'NONE', *, *, #40, .T. ) ;
#54 = CARTESIAN_POINT ( 'NONE',  ( 0.000000000000000000, 0.000000000000000000, 0.1250000000000000000 ) ) ;
#55 = ORIENTED_EDGE ( 'NONE', *, *, #170, .T. ) ;
#56 = DIRECTION ( 'NONE',  ( -0.000000000000000000, -0.000000000000000000, -1.000000000000000000 ) ) ;
#57 = ORIENTED_EDGE ( 'NONE', *, *, #85, .T. ) ;
#58 = VECTOR ( 'NONE', #198, 39.37007874015748143 ) ;
#59 = CARTESIAN_POINT ( 'NONE',  ( -0.1085418506076496065, 0.1880000000000000282, 0.000000000000000000 ) ) ;
#60 = ORIENTED_EDGE ( 'NONE', *, *, #74, .F. ) ;
#61 = VERTEX_POINT ( 'NONE', #274 ) ;
#62 = DIRECTION ( 'NONE',  ( -0.5000000000000004441, 0.8660254037844383745, 0.000000000000000000 ) ) ;
#63 = VECTOR ( 'NONE', #296, 39.37007874015748143 ) ;
#64 = ADVANCED_FACE ( 'NONE', ( #17, #91 ), #171, .F. ) ;
#65 = FILL_AREA_STYLE ('',( #192 ) ) ;
#66 = CARTESIAN_POINT ( 'NONE',  ( 0.2170837012152992962, -8.629126648930641522E-21, 0.000000000000000000 ) ) ;
#67 = CARTESIAN_POINT ( 'NONE',  ( -0.2170837012152992962, -6.822844948385385685E-21, 0.000000000000000000 ) ) ;
#68 = APPLICATION_CONTEXT ( 'automotive_design' ) ;
#69 = PLANE ( 'NONE',  #249 ) ;
#70 = CARTESIAN_POINT ( 'NONE',  ( 0.000000000000000000, 0.000000000000000000, 0.000000000000000000 ) ) ;
#71 = LINE ( 'NONE', #20, #63 ) ;
#72 = FACE_OUTER_BOUND ( 'NONE', #8, .T. ) ;
#73 = ORIENTED_EDGE ( 'NONE', *, *, #145, .F. ) ;
#74 = EDGE_CURVE ( 'NONE', #129, #61, #303, .T. ) ;
#75 = CYLINDRICAL_SURFACE ( 'NONE', #97, 0.3125000000000000000 ) ;
#76 = VERTEX_POINT ( 'NONE', #247 ) ;
#77 = AXIS2_PLACEMENT_3D ( 'NONE', #70, #172, #48 ) ;
#78 = LINE ( 'NONE', #105, #147 ) ;
#79 = ORIENTED_EDGE ( 'NONE', *, *, #276, .F. ) ;
#80 = ORIENTED_EDGE ( 'NONE', *, *, #252, .T. ) ;
#81 = DIRECTION ( 'NONE',  ( -0.8660254037844385966, 0.5000000000000001110, 0.000000000000000000 ) ) ;
#82 = ORIENTED_EDGE ( 'NONE', *, *, #1, .F. ) ;
#83 = CARTESIAN_POINT ( 'NONE',  ( -0.3125000000000000000, 0.000000000000000000, 0.1250000000000000000 ) ) ;
#84 = LINE ( 'NONE', #142, #206 ) ;
#85 = EDGE_CURVE ( 'NONE', #257, #76, #96, .T. ) ;
#86 = SURFACE_STYLE_USAGE ( .BOTH. , #37 ) ;
#87 = VECTOR ( 'NONE', #167, 39.37007874015748143 ) ;
#88 = AXIS2_PLACEMENT_3D ( 'NONE', #45, #273, #47 ) ;
#89 = DIRECTION ( 'NONE',  ( -0.000000000000000000, -0.000000000000000000, -1.000000000000000000 ) ) ;
#90 = FACE_OUTER_BOUND ( 'NONE', #287, .T. ) ;
#91 = FACE_BOUND ( 'NONE', #127, .T. ) ;
#92 = CARTESIAN_POINT ( 'NONE',  ( 0.000000000000000000, 0.000000000000000000, 0.000000000000000000 ) ) ;
#93 = EDGE_CURVE ( 'NONE', #133, #257, #318, .T. ) ;
#94 = PLANE ( 'NONE',  #88 ) ;
#95 = MECHANICAL_DESIGN_GEOMETRIC_PRESENTATION_REPRESENTATION (  '', ( #159 ), #285 ) ;
#96 = LINE ( 'NONE', #227, #191 ) ;
#97 = AXIS2_PLACEMENT_3D ( 'NONE', #281, #30, #210 ) ;
#98 = LINE ( 'NONE', #208, #104 ) ;
#99 = CARTESIAN_POINT ( 'NONE',  ( 0.1085418506076495232, 0.1880000000000000282, 0.000000000000000000 ) ) ;
#100 = ORIENTED_EDGE ( 'NONE', *, *, #135, .T. ) ;
#101 = LINE ( 'NONE', #237, #46 ) ;
#102 = DIMENSIONAL_EXPONENTS ( 1.000000000000000000, 0.000000000000000000, 0.000000000000000000, 0.000000000000000000, 0.000000000000000000, 0.000000000000000000, 0.000000000000000000 ) ;
#103 = ORIENTED_EDGE ( 'NONE', *, *, #313, .T. ) ;
#104 = VECTOR ( 'NONE', #304, 39.37007874015748143 ) ;
#105 = CARTESIAN_POINT ( 'NONE',  ( 0.2170837012152992962, -8.629126648930641522E-21, 0.1250000000000000000 ) ) ;
#106 = PRODUCT_DEFINITION ( 'UNKNOWN', '', #38, #132 ) ;
#107 = ORIENTED_EDGE ( 'NONE', *, *, #85, .F. ) ;
#108 = EDGE_LOOP ( 'NONE', ( #176, #178 ) ) ;
#109 = CARTESIAN_POINT ( 'NONE',  ( 0.000000000000000000, 0.000000000000000000, 0.000000000000000000 ) ) ;
#110 = EDGE_LOOP ( 'NONE', ( #73, #60 ) ) ;
#111 = VECTOR ( 'NONE', #201, 39.37007874015748143 ) ;
#112 = EDGE_CURVE ( 'NONE', #240, #134, #16, .T. ) ;
#113 = VERTEX_POINT ( 'NONE', #250 ) ;
#114 = ORIENTED_EDGE ( 'NONE', *, *, #42, .T. ) ;
#115 = DIRECTION ( 'NONE',  ( 0.000000000000000000, -0.000000000000000000, 1.000000000000000000 ) ) ;
#116 = VECTOR ( 'NONE', #56, 39.37007874015748143 ) ;
#117 = ORIENTED_EDGE ( 'NONE', *, *, #18, .F. ) ;
#118 = LINE ( 'NONE', #67, #263 ) ;
#119 = DIRECTION ( 'NONE',  ( 0.8660254037844385966, 0.5000000000000001110, -0.000000000000000000 ) ) ;
#120 = CARTESIAN_POINT ( 'NONE',  ( 0.000000000000000000, 0.000000000000000000, 0.000000000000000000 ) ) ;
#121 = DIRECTION ( 'NONE',  ( 1.000000000000000000, 0.000000000000000000, -0.000000000000000000 ) ) ;
#122 = DIRECTION ( 'NONE',  ( 0.000000000000000000, 0.000000000000000000, 1.000000000000000000 ) ) ;
#123 = AXIS2_PLACEMENT_3D ( 'NONE', #120, #321, #271 ) ;
#124 = EDGE_CURVE ( 'NONE', #213, #242, #226, .T. ) ;
#125 = CARTESIAN_POINT ( 'NONE',  ( -0.2170837012152992962, -6.822844948385385685E-21, 0.000000000000000000 ) ) ;
#126 = CARTESIAN_POINT ( 'NONE',  ( 0.3125000000000000000, 3.827021247335478926E-17, 0.1250000000000000000 ) ) ;
#127 = EDGE_LOOP ( 'NONE', ( #57, #153, #80, #156, #306, #331 ) ) ;
#128 = DIRECTION ( 'NONE',  ( -0.000000000000000000, -0.000000000000000000, -1.000000000000000000 ) ) ;
#129 = VERTEX_POINT ( 'NONE', #44 ) ;
#130 = DIRECTION ( 'NONE',  ( -0.5000000000000001110, -0.8660254037844385966, 0.000000000000000000 ) ) ;
#131 = ORIENTED_EDGE ( 'NONE', *, *, #9, .F. ) ;
#132 = PRODUCT_DEFINITION_CONTEXT ( 'detailed design', #68, 'design' ) ;
#133 = VERTEX_POINT ( 'NONE', #150 ) ;
#134 = VERTEX_POINT ( 'NONE', #194 ) ;
#135 = EDGE_CURVE ( 'NONE', #232, #113, #71, .T. ) ;
#136 = ORIENTED_EDGE ( 'NONE', *, *, #262, .F. ) ;
#137 = SHAPE_DEFINITION_REPRESENTATION ( #270, #7 ) ;
#138 = CARTESIAN_POINT ( 'NONE',  ( 0.1085418506076495232, 0.1880000000000000282, 0.1250000000000000000 ) ) ;
#139 = DIMENSIONAL_EXPONENTS ( 1.000000000000000000, 0.000000000000000000, 0.000000000000000000, 0.000000000000000000, 0.000000000000000000, 0.000000000000000000, 0.000000000000000000 ) ;
#140 = ORIENTED_EDGE ( 'NONE', *, *, #233, .F. ) ;
#141 = LINE ( 'NONE', #221, #87 ) ;
#142 = CARTESIAN_POINT ( 'NONE',  ( -0.2170837012152992962, -6.822844948385385685E-21, 0.1250000000000000000 ) ) ;
#143 = CARTESIAN_POINT ( 'NONE',  ( -0.3125000000000000000, 0.000000000000000000, 0.1250000000000000000 ) ) ;
#144 = CARTESIAN_POINT ( 'NONE',  ( 0.2170837012152992962, -8.629126648930641522E-21, 0.1250000000000000000 ) ) ;
#145 = EDGE_CURVE ( 'NONE', #61, #129, #245, .T. ) ;
#146 = CLOSED_SHELL ( 'NONE', ( #329, #26, #64, #218, #264, #205, #165, #162, #187, #3 ) ) ;
#147 = VECTOR ( 'NONE', #300, 39.37007874015748143 ) ;
#148 = CARTESIAN_POINT ( 'NONE',  ( -0.1085418506076496065, -0.1879999999999999727, 0.1250000000000000000 ) ) ;
#149 = PLANE ( 'NONE',  #294 ) ;
#150 = CARTESIAN_POINT ( 'NONE',  ( -0.1085418506076496065, -0.1879999999999999727, 0.000000000000000000 ) ) ;
#151 = VECTOR ( 'NONE', #89, 39.37007874015748143 ) ;
#152 = LENGTH_MEASURE_WITH_UNIT ( LENGTH_MEASURE( 0.02539999999999999897 ), #324 );
#153 = ORIENTED_EDGE ( 'NONE', *, *, #18, .T. ) ;
#154 = ORIENTED_EDGE ( 'NONE', *, *, #112, .T. ) ;
#155 = CARTESIAN_POINT ( 'NONE',  ( -0.1085418506076496065, 0.1880000000000000282, 0.1250000000000000000 ) ) ;
#156 = ORIENTED_EDGE ( 'NONE', *, *, #124, .T. ) ;
#157 = EDGE_CURVE ( 'NONE', #242, #133, #118, .T. ) ;
#158 = PLANE ( 'NONE',  #320 ) ;
#159 = STYLED_ITEM ( 'NONE', ( #189 ), #19 ) ;
#160 = ORIENTED_EDGE ( 'NONE', *, *, #124, .F. ) ;
#161 = ORIENTED_EDGE ( 'NONE', *, *, #13, .T. ) ;
#162 = ADVANCED_FACE ( 'NONE', ( #169 ), #94, .T. ) ;
#163 =( LENGTH_UNIT ( ) NAMED_UNIT ( * ) SI_UNIT ( $, .METRE. ) );
#164 =( CONVERSION_BASED_UNIT ( 'INCH', #190 ) LENGTH_UNIT ( ) NAMED_UNIT ( #139 ) );
#165 = ADVANCED_FACE ( 'NONE', ( #90 ), #149, .T. ) ;
#166 = LINE ( 'NONE', #217, #151 ) ;
#167 = DIRECTION ( 'NONE',  ( -1.000000000000000000, 0.000000000000000000, 0.000000000000000000 ) ) ;
#168 = VECTOR ( 'NONE', #175, 39.37007874015748143 ) ;
#169 = FACE_OUTER_BOUND ( 'NONE', #31, .T. ) ;
#170 = EDGE_CURVE ( 'NONE', #28, #61, #228, .T. ) ;
#171 = PLANE ( 'NONE',  #200 ) ;
#172 = DIRECTION ( 'NONE',  ( 0.000000000000000000, 0.000000000000000000, 1.000000000000000000 ) ) ;
#173 = AXIS2_PLACEMENT_3D ( 'NONE', #109, #215, #32 ) ;
#174 = CARTESIAN_POINT ( 'NONE',  ( 0.1085418506076496203, -0.1879999999999999727, 0.1250000000000000000 ) ) ;
#175 = DIRECTION ( 'NONE',  ( -0.000000000000000000, -0.000000000000000000, -1.000000000000000000 ) ) ;
#176 = ORIENTED_EDGE ( 'NONE', *, *, #289, .T. ) ;
#177 = AXIS2_PLACEMENT_3D ( 'NONE', #54, #27, #307 ) ;
#178 = ORIENTED_EDGE ( 'NONE', *, *, #246, .T. ) ;
#179 = FACE_OUTER_BOUND ( 'NONE', #6, .T. ) ;
#180 = VERTEX_POINT ( 'NONE', #299 ) ;
#181 = UNCERTAINTY_MEASURE_WITH_UNIT (LENGTH_MEASURE( 1.000000000000000082E-05 ), #164, 'distance_accuracy_value', 'NONE');
#182 = ORIENTED_EDGE ( 'NONE', *, *, #9, .T. ) ;
#183 = AXIS2_PLACEMENT_3D ( 'NONE', #39, #12, #216 ) ;
#184 = FACE_OUTER_BOUND ( 'NONE', #209, .T. ) ;
#185 =( GEOMETRIC_REPRESENTATION_CONTEXT ( 3 ) GLOBAL_UNCERTAINTY_ASSIGNED_CONTEXT ( ( #315 ) ) GLOBAL_UNIT_ASSIGNED_CONTEXT ( ( #258, #283, #309 ) ) REPRESENTATION_CONTEXT ( 'NONE', 'WORKASPACE' ) );
#186 = ORIENTED_EDGE ( 'NONE', *, *, #42, .F. ) ;
#187 = ADVANCED_FACE ( 'NONE', ( #72 ), #14, .T. ) ;
#188 = PLANE ( 'NONE',  #15 ) ;
#189 = PRESENTATION_STYLE_ASSIGNMENT (( #86 ) ) ;
#190 = LENGTH_MEASURE_WITH_UNIT ( LENGTH_MEASURE( 0.02539999999999999897 ), #163 );
#191 = VECTOR ( 'NONE', #297, 39.37007874015748143 ) ;
#192 = FILL_AREA_STYLE_COLOUR ( '', #272 ) ;
#193 = FACE_OUTER_BOUND ( 'NONE', #108, .T. ) ;
#194 = CARTESIAN_POINT ( 'NONE',  ( 0.1085418506076496203, -0.1879999999999999727, 0.1250000000000000000 ) ) ;
#195 = VECTOR ( 'NONE', #323, 39.37007874015748143 ) ;
#196 = CARTESIAN_POINT ( 'NONE',  ( -0.1085418506076496065, -0.1879999999999999727, 0.000000000000000000 ) ) ;
#197 = CARTESIAN_POINT ( 'NONE',  ( -0.1085418506076496065, 0.1880000000000000282, 0.000000000000000000 ) ) ;
#198 = DIRECTION ( 'NONE',  ( -0.5000000000000001110, -0.8660254037844385966, 0.000000000000000000 ) ) ;
#199 = PRESENTATION_LAYER_ASSIGNMENT (  '', '', ( #159 ) ) ;
#200 = AXIS2_PLACEMENT_3D ( 'NONE', #92, #122, #121 ) ;
#201 = DIRECTION ( 'NONE',  ( -0.000000000000000000, -0.000000000000000000, -1.000000000000000000 ) ) ;
#202 = DIRECTION ( 'NONE',  ( 1.000000000000000000, 0.000000000000000000, 0.000000000000000000 ) ) ;
#203 = LINE ( 'NONE', #332, #225 ) ;
#204 = ORIENTED_EDGE ( 'NONE', *, *, #313, .F. ) ;
#205 = ADVANCED_FACE ( 'NONE', ( #319 ), #69, .T. ) ;
#206 = VECTOR ( 'NONE', #290, 39.37007874015748143 ) ;
#207 = VECTOR ( 'NONE', #251, 39.37007874015748143 ) ;
#208 = CARTESIAN_POINT ( 'NONE',  ( 0.1085418506076495232, 0.1880000000000000282, 0.1250000000000000000 ) ) ;
#209 = EDGE_LOOP ( 'NONE', ( #260, #326, #238, #308 ) ) ;
#210 = DIRECTION ( 'NONE',  ( -1.000000000000000000, 0.000000000000000000, 0.000000000000000000 ) ) ;
#211 = EDGE_LOOP ( 'NONE', ( #117, #136, #103, #312 ) ) ;
#212 = CARTESIAN_POINT ( 'NONE',  ( 0.000000000000000000, 0.000000000000000000, 0.1250000000000000000 ) ) ;
#213 = VERTEX_POINT ( 'NONE', #59 ) ;
#214 = VECTOR ( 'NONE', #222, 39.37007874015748143 ) ;
#215 = DIRECTION ( 'NONE',  ( 0.000000000000000000, 0.000000000000000000, 1.000000000000000000 ) ) ;
#216 = DIRECTION ( 'NONE',  ( 1.000000000000000000, 0.000000000000000000, -0.000000000000000000 ) ) ;
#217 = CARTESIAN_POINT ( 'NONE',  ( -0.1085418506076496065, -0.1879999999999999727, 0.1250000000000000000 ) ) ;
#218 = ADVANCED_FACE ( 'NONE', ( #24 ), #277, .T. ) ;
#219 = APPLICATION_PROTOCOL_DEFINITION ( 'draft international standard', 'automotive_design', 1998, #68 ) ;
#220 = ORIENTED_EDGE ( 'NONE', *, *, #275, .F. ) ;
#221 = CARTESIAN_POINT ( 'NONE',  ( 0.1085418506076495232, 0.1880000000000000282, 0.1250000000000000000 ) ) ;
#222 = DIRECTION ( 'NONE',  ( -0.000000000000000000, -0.000000000000000000, -1.000000000000000000 ) ) ;
#223 = PRODUCT_RELATED_PRODUCT_CATEGORY ( 'part', '', ( #230 ) ) ;
#224 = DIRECTION ( 'NONE',  ( -0.5000000000000001110, 0.8660254037844385966, 0.000000000000000000 ) ) ;
#225 = VECTOR ( 'NONE', #330, 39.37007874015748143 ) ;
#226 = LINE ( 'NONE', #197, #58 ) ;
#227 = CARTESIAN_POINT ( 'NONE',  ( 0.1085418506076496203, -0.1879999999999999727, 0.000000000000000000 ) ) ;
#228 = LINE ( 'NONE', #143, #111 ) ;
#229 = CARTESIAN_POINT ( 'NONE',  ( -0.1085418506076496065, -0.1879999999999999727, 0.1250000000000000000 ) ) ;
#230 = PRODUCT ( 'am-3947a-125 375H x 125IN Spacer', 'am-3947a-125 375H x 125IN Spacer', '', ( #43 ) ) ;
#231 = LINE ( 'NONE', #239, #11 ) ;
#232 = VERTEX_POINT ( 'NONE', #155 ) ;
#233 = EDGE_CURVE ( 'NONE', #33, #129, #22, .T. ) ;
#234 = DIRECTION ( 'NONE',  ( 0.000000000000000000, 0.000000000000000000, 1.000000000000000000 ) ) ;
#235 = EDGE_LOOP ( 'NONE', ( #140, #259, #55, #278 ) ) ;
#236 = AXIS2_PLACEMENT_3D ( 'NONE', #302, #286, #202 ) ;
#237 = CARTESIAN_POINT ( 'NONE',  ( 0.1085418506076496203, -0.1879999999999999727, 0.1250000000000000000 ) ) ;
#238 = ORIENTED_EDGE ( 'NONE', *, *, #74, .T. ) ;
#239 = CARTESIAN_POINT ( 'NONE',  ( 0.1085418506076495232, 0.1880000000000000282, 0.000000000000000000 ) ) ;
#240 = VERTEX_POINT ( 'NONE', #229 ) ;
#241 = ORIENTED_EDGE ( 'NONE', *, *, #40, .F. ) ;
#242 = VERTEX_POINT ( 'NONE', #125 ) ;
#243 = PLANE ( 'NONE',  #183 ) ;
#244 = DIRECTION ( 'NONE',  ( 0.000000000000000000, 1.000000000000000000, 0.000000000000000000 ) ) ;
#245 = CIRCLE ( 'NONE', #77, 0.3125000000000000000 ) ;
#246 = EDGE_CURVE ( 'NONE', #33, #28, #311, .T. ) ;
#247 = CARTESIAN_POINT ( 'NONE',  ( 0.2170837012152992962, -8.629126648930641522E-21, 0.000000000000000000 ) ) ;
#248 = DIRECTION ( 'NONE',  ( -0.8660254037844383745, -0.5000000000000004441, 0.000000000000000000 ) ) ;
#249 = AXIS2_PLACEMENT_3D ( 'NONE', #144, #248, #325 ) ;
#250 = CARTESIAN_POINT ( 'NONE',  ( -0.2170837012152992962, -6.822844948385385685E-21, 0.1250000000000000000 ) ) ;
#251 = DIRECTION ( 'NONE',  ( 1.000000000000000000, 0.000000000000000000, 0.000000000000000000 ) ) ;
#252 = EDGE_CURVE ( 'NONE', #255, #213, #231, .T. ) ;
#253 = DIRECTION ( 'NONE',  ( 0.5000000000000001110, 0.8660254037844385966, 0.000000000000000000 ) ) ;
#254 = CARTESIAN_POINT ( 'NONE',  ( 0.2170837012152992962, -8.629126648930641522E-21, 0.1250000000000000000 ) ) ;
#255 = VERTEX_POINT ( 'NONE', #99 ) ;
#256 = DIRECTION ( 'NONE',  ( -1.000000000000000000, 0.000000000000000000, 0.000000000000000000 ) ) ;
#257 = VERTEX_POINT ( 'NONE', #21 ) ;
#258 =( CONVERSION_BASED_UNIT ( 'INCH', #152 ) LENGTH_UNIT ( ) NAMED_UNIT ( #102 ) );
#259 = ORIENTED_EDGE ( 'NONE', *, *, #289, .F. ) ;
#260 = ORIENTED_EDGE ( 'NONE', *, *, #246, .F. ) ;
#261 = CARTESIAN_POINT ( 'NONE',  ( 0.3125000000000000000, 3.827021247335478926E-17, 0.1250000000000000000 ) ) ;
#262 = EDGE_CURVE ( 'NONE', #180, #76, #49, .T. ) ;
#263 = VECTOR ( 'NONE', #322, 39.37007874015748143 ) ;
#264 = ADVANCED_FACE ( 'NONE', ( #179 ), #158, .T. ) ;
#265 = ORIENTED_EDGE ( 'NONE', *, *, #275, .T. ) ;
#266 = LINE ( 'NONE', #66, #298 ) ;
#267 = FACE_OUTER_BOUND ( 'NONE', #23, .T. ) ;
#268 = CARTESIAN_POINT ( 'NONE',  ( 0.1085418506076495232, 0.1880000000000000282, 0.1250000000000000000 ) ) ;
#269 = DIRECTION ( 'NONE',  ( 0.000000000000000000, -1.000000000000000000, 0.000000000000000000 ) ) ;
#270 = PRODUCT_DEFINITION_SHAPE ( 'NONE', 'NONE',  #106 ) ;
#271 = DIRECTION ( 'NONE',  ( 1.000000000000000000, 0.000000000000000000, 0.000000000000000000 ) ) ;
#272 = COLOUR_RGB ( '',0.7921568627450980005, 0.8196078431372548767, 0.9333333333333333481 ) ;
#273 = DIRECTION ( 'NONE',  ( 0.8660254037844385966, -0.5000000000000001110, 0.000000000000000000 ) ) ;
#274 = CARTESIAN_POINT ( 'NONE',  ( -0.3125000000000000000, 0.000000000000000000, 0.000000000000000000 ) ) ;
#275 = EDGE_CURVE ( 'NONE', #134, #180, #101, .T. ) ;
#276 = EDGE_CURVE ( 'NONE', #113, #242, #203, .T. ) ;
#277 = CYLINDRICAL_SURFACE ( 'NONE', #177, 0.3125000000000000000 ) ;
#278 = ORIENTED_EDGE ( 'NONE', *, *, #145, .T. ) ;
#279 = CARTESIAN_POINT ( 'NONE',  ( 0.1085418506076496203, -0.1879999999999999727, 0.1250000000000000000 ) ) ;
#280 = ORIENTED_EDGE ( 'NONE', *, *, #135, .F. ) ;
#281 = CARTESIAN_POINT ( 'NONE',  ( 0.000000000000000000, 0.000000000000000000, 0.1250000000000000000 ) ) ;
#282 = ORIENTED_EDGE ( 'NONE', *, *, #305, .F. ) ;
#283 =( NAMED_UNIT ( * ) PLANE_ANGLE_UNIT ( ) SI_UNIT ( $, .RADIAN. ) );
#284 = ORIENTED_EDGE ( 'NONE', *, *, #262, .T. ) ;
#285 =( GEOMETRIC_REPRESENTATION_CONTEXT ( 3 ) GLOBAL_UNCERTAINTY_ASSIGNED_CONTEXT ( ( #181 ) ) GLOBAL_UNIT_ASSIGNED_CONTEXT ( ( #164, #291, #317 ) ) REPRESENTATION_CONTEXT ( 'NONE', 'WORKASPACE' ) );
#286 = DIRECTION ( 'NONE',  ( 0.000000000000000000, 0.000000000000000000, 1.000000000000000000 ) ) ;
#287 = EDGE_LOOP ( 'NONE', ( #36, #282, #161, #53 ) ) ;
#288 = LINE ( 'NONE', #34, #168 ) ;
#289 = EDGE_CURVE ( 'NONE', #28, #33, #52, .T. ) ;
#290 = DIRECTION ( 'NONE',  ( 0.5000000000000001110, -0.8660254037844385966, 0.000000000000000000 ) ) ;
#291 =( NAMED_UNIT ( * ) PLANE_ANGLE_UNIT ( ) SI_UNIT ( $, .RADIAN. ) );
#292 = FACE_BOUND ( 'NONE', #25, .T. ) ;
#293 = LINE ( 'NONE', #174, #214 ) ;
#294 = AXIS2_PLACEMENT_3D ( 'NONE', #268, #269, #41 ) ;
#295 = CARTESIAN_POINT ( 'NONE',  ( -0.2170837012152992962, -6.822844948385385685E-21, 0.1250000000000000000 ) ) ;
#296 = DIRECTION ( 'NONE',  ( -0.5000000000000001110, -0.8660254037844385966, 0.000000000000000000 ) ) ;
#297 = DIRECTION ( 'NONE',  ( 0.5000000000000001110, 0.8660254037844385966, 0.000000000000000000 ) ) ;
#298 = VECTOR ( 'NONE', #62, 39.37007874015748143 ) ;
#299 = CARTESIAN_POINT ( 'NONE',  ( 0.2170837012152992962, -8.629126648930641522E-21, 0.1250000000000000000 ) ) ;
#300 = DIRECTION ( 'NONE',  ( -0.5000000000000004441, 0.8660254037844383745, 0.000000000000000000 ) ) ;
#301 = ORIENTED_EDGE ( 'NONE', *, *, #1, .T. ) ;
#302 = CARTESIAN_POINT ( 'NONE',  ( 0.000000000000000000, 0.000000000000000000, 0.1250000000000000000 ) ) ;
#303 = CIRCLE ( 'NONE', #123, 0.3125000000000000000 ) ;
#304 = DIRECTION ( 'NONE',  ( -0.000000000000000000, -0.000000000000000000, -1.000000000000000000 ) ) ;
#305 = EDGE_CURVE ( 'NONE', #2, #255, #98, .T. ) ;
#306 = ORIENTED_EDGE ( 'NONE', *, *, #157, .T. ) ;
#307 = DIRECTION ( 'NONE',  ( -1.000000000000000000, 0.000000000000000000, 0.000000000000000000 ) ) ;
#308 = ORIENTED_EDGE ( 'NONE', *, *, #170, .F. ) ;
#309 =( NAMED_UNIT ( * ) SI_UNIT ( $, .STERADIAN. ) SOLID_ANGLE_UNIT ( ) );
#310 = ORIENTED_EDGE ( 'NONE', *, *, #157, .F. ) ;
#311 = CIRCLE ( 'NONE', #35, 0.3125000000000000000 ) ;
#312 = ORIENTED_EDGE ( 'NONE', *, *, #305, .T. ) ;
#313 = EDGE_CURVE ( 'NONE', #180, #2, #78, .T. ) ;
#314 = CARTESIAN_POINT ( 'NONE',  ( -0.1085418506076496065, -0.1879999999999999727, 0.1250000000000000000 ) ) ;
#315 = UNCERTAINTY_MEASURE_WITH_UNIT (LENGTH_MEASURE( 1.000000000000000082E-05 ), #258, 'distance_accuracy_value', 'NONE');
#316 = SURFACE_STYLE_FILL_AREA ( #65 ) ;
#317 =( NAMED_UNIT ( * ) SI_UNIT ( $, .STERADIAN. ) SOLID_ANGLE_UNIT ( ) );
#318 = LINE ( 'NONE', #196, #207 ) ;
#319 = FACE_OUTER_BOUND ( 'NONE', #211, .T. ) ;
#320 = AXIS2_PLACEMENT_3D ( 'NONE', #279, #81, #130 ) ;
#321 = DIRECTION ( 'NONE',  ( 0.000000000000000000, 0.000000000000000000, 1.000000000000000000 ) ) ;
#322 = DIRECTION ( 'NONE',  ( 0.5000000000000001110, -0.8660254037844385966, 0.000000000000000000 ) ) ;
#323 = DIRECTION ( 'NONE',  ( 1.000000000000000000, 0.000000000000000000, 0.000000000000000000 ) ) ;
#324 =( LENGTH_UNIT ( ) NAMED_UNIT ( * ) SI_UNIT ( $, .METRE. ) );
#325 = DIRECTION ( 'NONE',  ( 0.5000000000000004441, -0.8660254037844383745, 0.000000000000000000 ) ) ;
#326 = ORIENTED_EDGE ( 'NONE', *, *, #233, .T. ) ;
#327 = DIRECTION ( 'NONE',  ( 1.000000000000000000, 0.000000000000000000, 0.000000000000000000 ) ) ;
#328 = ORIENTED_EDGE ( 'NONE', *, *, #276, .T. ) ;
#329 = ADVANCED_FACE ( 'NONE', ( #184 ), #75, .T. ) ;
#330 = DIRECTION ( 'NONE',  ( -0.000000000000000000, -0.000000000000000000, -1.000000000000000000 ) ) ;
#331 = ORIENTED_EDGE ( 'NONE', *, *, #93, .T. ) ;
#332 = CARTESIAN_POINT ( 'NONE',  ( -0.2170837012152992962, -6.822844948385385685E-21, 0.1250000000000000000 ) ) ;
#333 = ORIENTED_EDGE ( 'NONE', *, *, #13, .F. ) ;
ENDSEC;
END-ISO-10303-21;
